Weekend Discussion

By Chris Faylor, Apr 25, 2009 5:48am PDT Eventually, there will come a weekend where I actually get to sleep in. Not today, obviously, and maybe not tomorrow, and probably not next week, but some day.

Of course, that's probably the same "some day" that I actually complete all these half-finished games in my backlog--ones I actually want to beat, like Resident Evil 5 and Fallout 3--but it's important to have dreams and aspirations and goals. Healthy, even.

Now, if you'll excuse me, I have a boat to be on. I might even climb a buoy!

Click here to comment...







  • e|---------------------------------------------------------------------------|
    B|---------------------------------------------------------------------------|
    G|---------------------------------------------------------------------------|
    D|-|intro:------------------------|------------------------------------------|
    A|--5h---/-1h---/-8h---/-3h---/-5h---5-7-8-0-1h---/-10h--5h--5-7-8-0-1h--/-8h|
    D|--5h---/-1h---/-8h---/-3h---/-5h---5-7-8-0-1h---/-10h--5h--5-7-8-0-1h--/-8h|


    e|---------------------------------------------------------------------------|
    B|---------------------------------------------------------------------------|
    G|---------------------------------------------------------------------------|
    D|---------------------------------------------------------------------------|
    A|-5h----5-7-8-0-1h----7-10h----5h----5-7-8-0-1h----6-8h----5h---------------|
    D|-5h----5-7-8-0-1h----7-10h----5h----5-7-8-0-1h----6-8h----5h---------------|